: Гимн Израиля (табы и ноты) | GitaraPlus.ru Александр Фефелов | Уроки гитары

Гимн Израиля (табы и ноты)

Шалом, друзья!

Предлагаю в этом посте разучить гимн Израиля. Это исполнение помогает хорошо освоить пятую позицию, а тем, кто еще слабо ориентируется по нотам в помощь табулатура под этим видео.

Для тех, кто может читать ноты – смотрите картинку в самом конце поста.

Rythm legend (обозначения длительностей нот):
E = Eighth (восьмая нота)
Q = Quarter (четвертная нота)
H = Half (половинная нота)

Часть A

     E E E E Q Q   E E E E H   Q E E Q Q   E E E E Q Q
 E|--------------|-----------|-----------|-------------|
 B|--------------|-----------|-----------|-------------|
 G|--------------|-------7---|-----------|-------------|
 D|--------5-7-7-|-8-7-8---7-|-5-5-5-----|-------------|
 A|--5-7-8-------|-----------|-------8-8-|-7-5-7-8-5---|
 E|--------------|-----------|-----------|-----------5-|
    E E E E Q Q    E E E E H   Q E E Q Q   E E E E H
 E|--------------|-----------|-----------|-------------|
 B|--------------|-----------|-----------|-------------|
 G|--------------|-------7---|-----------|-------------|
 D|--------5-7-7-|-8-7-8---7-|-5-5-5-----|-------------|
 A|--5-7-8-------|-----------|-------8-8-|-7-5-7-8-5---|
 E|--------------|-----------|-----------|-------------|
Часть B
     Q Q Q Q   E E E E H
 E|----------|-----------|
 B|----------|-----------|
 G|----7-7-7-|-5-7-5-----|
 D|----------|-------8-7-|
 A|--5-------|-----------|
 E|----------|-----------|
     Q Q Q Q   E E E E H
 E|----------|-----------|
 B|----------|-----------|
 G|----7-7-7-|-5-7-5-----|
 D|----------|-------8-7-|
 A|--5-------|-----------|
 E|----------|-----------|
Часть C
     Q E E Q Q   E E E E Q E E   Q Q Q Q   E E E E H
 E|------------|---------------|---------|--------------|
 B|------------|---------------|---------|--------------|
 G|--5-5-5-----|-------5-------|---------|--------------|
 D|------------|-5-7-8---7-5---|-5-5-----|--------------|
 A|--------8-8-|-------------8-|-----8-8-|-7-5-7-8-5----|
 E|------------|---------------|---------|--------------|
     Q E E Q Q   E E E E Q E E   Q Q Q Q    E E E E H
 E|------------|---------------|---------|--------------|
 B|------------|---------------|---------|--------------|
 G|------------|-------5-------|---------|--------------|
 D|--5-5-5-----|-5-7-8---7-5---|-5-5-----|--------------|
 A|--------8-8-|-------------8-|-----8-8-|-7-5-7-8-5----|
 E|------------|---------------|---------|--------------|

 

Скачать (PDF, 10KB)

Поделиться в соц. сетях

Опубликовать в Google Buzz
Опубликовать в Google Plus
Опубликовать в LiveJournal
Опубликовать в Мой Мир
Опубликовать в Одноклассники
Вы можете оставить комментарий, или Трекбэк с вашего сайта.

Комментариев к записи: 3

  1. Владимир:

    Александр! Спасибо Вам большое за Атикву!. Вы, её здорово сыграли. Вообще, Вы замечательный преподаватель. Успехов Вам и Вашим ученикам.
    Ещё раз спасибо за Вашу творческую деятельность !

    Владимир

Оставить комментарий